1. avatar 3timmi
    Hey

    Could anyone please write me the guitar tab for part of Dragonforce's song Black fire, between 3:52 - 4:02 into the song?

    I've ween trying to work it out but cant =/

    http://www.youtube.com/watch?v=J6wjblJFR2k
  2. avatar Per
    ||-14-16-23-12-24-18-17-23-23-27-87-45-14-51-16-15-11-102-
    ||--33-15-16-19-25-12-20-17-19-18-23-26-33-18-19-16-44-17-
    ||-16-18-13-13-22-27-17-19-20-47-93-666-10-19-29-12-22-21-
    ||---12-16-26-22-18-17-24-0-33-19-31-99-27-29-23-48-------
    ||--------------------------------------------------------
    ||--------------------------------------------------------

    that's as close as i could get
  3. avatar gared
    [quote:64b0442dd9="3timmi"]Hey

    Could anyone please write me the guitar tab for part of Dragonforce's song Black fire, between 3:52 - 4:02 into the song?

    I've ween trying to work it out but cant =/

    http://www.youtube.com/watch?v=J6wjblJFR2k[/quote:64b0442dd9]

    You can get the tab here:

    http://www.911tabs.com/tabs/d/dragonforce/black_fire_tab.htm

    Nice.
  4. avatar Aeorta
    I don't think those tabs have the bit you were looking for. I exported this from the Guitar Pro tab on Ultimate Guitar, and haven't checked it note for note, but it seems right. Guitar Pro seems to be good for stuff like this, and I'm sure the free alternative Power Tab is good too, although it shouldn't be hard to find a torrent of Guitar Pro.

    DragonForce - Black Fire
    Lead Guitar (Totman)

    E||----------------------------|-------------5-----------|
    B||-------6---5----5---8---6~|-------6--8-----8--6--5|
    G||--7-------------------------|-------------------------|
    D||----------------------------|-------------------------|
    A||----------------------------|-------------------------|
    E||----------------------------|-------------------------|


    ----------------------------|-------------5--8-6-5-------|
    -------6---5----5---8---6~|-------6--8-----------8-6-5|
    --7-------------------------|----------------------------|
    ----------------------------|----------------------------|
    ----------------------------|----------------------------|
    ----------------------------|----------------------------|


    ----------------------------|-----------------5------|-----------------5--8~|
    -------6---5----5---8---6~|-----------6--8-----8~|--------------8---------|
    --7-------------------------|------------------------|------------------------|
    ----------------------------|------------------------|------------------------|
    ----------------------------|------------------------|------------------------|
    ----------------------------|------------------------|------------------------|


    -----------5-6-5-----------||
    -----------------8-6-5-----||
    -----------------------7-5-||
    ---------------------------||
    ---------------------------||
    ---------------------------||